ISO-10303-21;
HEADER;
/* Generated by software containing ST-Developer
 * from STEP Tools, Inc. (www.steptools.com) 
 */

FILE_DESCRIPTION(
/* description */ (''),
/* implementation_level */ '2;1');

FILE_NAME(
/* name */ 'X:\\Engineering\\Tubular Step files\\SDT3050L.stp',
/* time_stamp */ '2022-08-11T15:47:51+01:00',
/* author */ ('mar'),
/* organization */ (''),
/* preprocessor_version */ 'ST-DEVELOPER v16.5',
/* originating_system */ 'Autodesk Inventor 2017',
/* authorisation */ '');

FILE_SCHEMA (('AUTOMOTIVE_DESIGN { 1 0 10303 214 3 1 1 }'));
ENDSEC;

DATA;
#10=MECHANICAL_DESIGN_GEOMETRIC_PRESENTATION_REPRESENTATION('',(#13),#409);
#11=SHAPE_REPRESENTATION_RELATIONSHIP('SRR','None',#418,#12);
#12=ADVANCED_BREP_SHAPE_REPRESENTATION('',(#14),#408);
#13=STYLED_ITEM('',(#427),#14);
#14=MANIFOLD_SOLID_BREP('Solid1',#227);
#15=LINE('',#374,#23);
#16=LINE('',#389,#24);
#17=LINE('',#395,#25);
#18=LINE('',#398,#26);
#19=LINE('',#400,#27);
#20=LINE('',#401,#28);
#21=LINE('',#403,#29);
#22=LINE('',#404,#30);
#23=VECTOR('',#307,10.);
#24=VECTOR('',#316,10.);
#25=VECTOR('',#321,10.);
#26=VECTOR('',#324,10.);
#27=VECTOR('',#327,10.);
#28=VECTOR('',#328,10.);
#29=VECTOR('',#331,10.);
#30=VECTOR('',#332,10.);
#31=(
BOUNDED_CURVE()
B_SPLINE_CURVE(2,(#363,#364,#365),.UNSPECIFIED.,.F.,.F.)
B_SPLINE_CURVE_WITH_KNOTS((3,3),(1.35871602247954,1.43091707183535),
 .UNSPECIFIED.)
CURVE()
GEOMETRIC_REPRESENTATION_ITEM()
RATIONAL_B_SPLINE_CURVE((1.01328691999335,1.00699648798426,1.))
REPRESENTATION_ITEM('')
);
#32=(
BOUNDED_CURVE()
B_SPLINE_CURVE(2,(#369,#370,#371),.UNSPECIFIED.,.F.,.F.)
B_SPLINE_CURVE_WITH_KNOTS((3,3),(0.,0.0722010493558112),.UNSPECIFIED.)
CURVE()
GEOMETRIC_REPRESENTATION_ITEM()
RATIONAL_B_SPLINE_CURVE((1.,1.00699648798426,1.01328691999335))
REPRESENTATION_ITEM('')
);
#33=(
BOUNDED_CURVE()
B_SPLINE_CURVE(2,(#378,#379,#380),.UNSPECIFIED.,.F.,.F.)
B_SPLINE_CURVE_WITH_KNOTS((3,3),(1.35871602247954,1.43091707183535),
 .UNSPECIFIED.)
CURVE()
GEOMETRIC_REPRESENTATION_ITEM()
RATIONAL_B_SPLINE_CURVE((1.01328691999335,1.00699648798426,1.))
REPRESENTATION_ITEM('')
);
#34=(
BOUNDED_CURVE()
B_SPLINE_CURVE(2,(#384,#385,#386),.UNSPECIFIED.,.F.,.F.)
B_SPLINE_CURVE_WITH_KNOTS((3,3),(0.,0.0722010493558112),.UNSPECIFIED.)
CURVE()
GEOMETRIC_REPRESENTATION_ITEM()
RATIONAL_B_SPLINE_CURVE((1.,1.00699648798426,1.01328691999335))
REPRESENTATION_ITEM('')
);
#35=PLANE('',#240);
#36=PLANE('',#246);
#37=PLANE('',#250);
#38=PLANE('',#254);
#39=PLANE('',#258);
#40=PLANE('',#259);
#41=PLANE('',#262);
#42=PLANE('',#263);
#43=CYLINDRICAL_SURFACE('',#238,15.);
#44=CYLINDRICAL_SURFACE('',#244,10.);
#45=CYLINDRICAL_SURFACE('',#264,6.);
#46=FACE_BOUND('',#71,.T.);
#47=FACE_BOUND('',#73,.T.);
#48=FACE_BOUND('',#76,.T.);
#49=FACE_BOUND('',#78,.T.);
#50=FACE_BOUND('',#80,.T.);
#51=FACE_BOUND('',#82,.T.);
#52=FACE_BOUND('',#84,.T.);
#53=FACE_BOUND('',#93,.T.);
#54=FACE_OUTER_BOUND('',#70,.T.);
#55=FACE_OUTER_BOUND('',#72,.T.);
#56=FACE_OUTER_BOUND('',#74,.T.);
#57=FACE_OUTER_BOUND('',#75,.T.);
#58=FACE_OUTER_BOUND('',#77,.T.);
#59=FACE_OUTER_BOUND('',#79,.T.);
#60=FACE_OUTER_BOUND('',#81,.T.);
#61=FACE_OUTER_BOUND('',#83,.T.);
#62=FACE_OUTER_BOUND('',#85,.T.);
#63=FACE_OUTER_BOUND('',#86,.T.);
#64=FACE_OUTER_BOUND('',#87,.T.);
#65=FACE_OUTER_BOUND('',#88,.T.);
#66=FACE_OUTER_BOUND('',#89,.T.);
#67=FACE_OUTER_BOUND('',#90,.T.);
#68=FACE_OUTER_BOUND('',#91,.T.);
#69=FACE_OUTER_BOUND('',#92,.T.);
#70=EDGE_LOOP('',(#154));
#71=EDGE_LOOP('',(#155));
#72=EDGE_LOOP('',(#156));
#73=EDGE_LOOP('',(#157));
#74=EDGE_LOOP('',(#158));
#75=EDGE_LOOP('',(#159));
#76=EDGE_LOOP('',(#160));
#77=EDGE_LOOP('',(#161));
#78=EDGE_LOOP('',(#162));
#79=EDGE_LOOP('',(#163));
#80=EDGE_LOOP('',(#164));
#81=EDGE_LOOP('',(#165));
#82=EDGE_LOOP('',(#166));
#83=EDGE_LOOP('',(#167));
#84=EDGE_LOOP('',(#168));
#85=EDGE_LOOP('',(#169,#170,#171,#172));
#86=EDGE_LOOP('',(#173,#174));
#87=EDGE_LOOP('',(#175,#176,#177,#178));
#88=EDGE_LOOP('',(#179,#180));
#89=EDGE_LOOP('',(#181,#182,#183,#184));
#90=EDGE_LOOP('',(#185,#186,#187,#188,#189,#190));
#91=EDGE_LOOP('',(#191,#192,#193,#194,#195,#196));
#92=EDGE_LOOP('',(#197,#198,#199,#200,#201,#202,#203,#204));
#93=EDGE_LOOP('',(#205));
#94=CIRCLE('',#236,15.);
#95=CIRCLE('',#237,14.5);
#96=CIRCLE('',#239,15.);
#97=CIRCLE('',#242,10.);
#98=CIRCLE('',#243,9.5);
#99=CIRCLE('',#245,10.);
#100=CIRCLE('',#247,6.);
#101=CIRCLE('',#249,14.5);
#102=CIRCLE('',#252,5.7);
#103=CIRCLE('',#253,6.);
#104=CIRCLE('',#256,5.7);
#105=CIRCLE('',#257,6.);
#106=CIRCLE('',#260,6.);
#107=CIRCLE('',#261,6.);
#108=VERTEX_POINT('',#337);
#109=VERTEX_POINT('',#339);
#110=VERTEX_POINT('',#342);
#111=VERTEX_POINT('',#346);
#112=VERTEX_POINT('',#348);
#113=VERTEX_POINT('',#351);
#114=VERTEX_POINT('',#354);
#115=VERTEX_POINT('',#357);
#116=VERTEX_POINT('',#361);
#117=VERTEX_POINT('',#362);
#118=VERTEX_POINT('',#366);
#119=VERTEX_POINT('',#368);
#120=VERTEX_POINT('',#376);
#121=VERTEX_POINT('',#377);
#122=VERTEX_POINT('',#381);
#123=VERTEX_POINT('',#383);
#124=VERTEX_POINT('',#391);
#125=VERTEX_POINT('',#392);
#126=VERTEX_POINT('',#394);
#127=VERTEX_POINT('',#396);
#128=EDGE_CURVE('',#108,#108,#94,.T.);
#129=EDGE_CURVE('',#109,#109,#95,.T.);
#130=EDGE_CURVE('',#110,#110,#96,.T.);
#131=EDGE_CURVE('',#111,#111,#97,.T.);
#132=EDGE_CURVE('',#112,#112,#98,.T.);
#133=EDGE_CURVE('',#113,#113,#99,.T.);
#134=EDGE_CURVE('',#114,#114,#100,.T.);
#135=EDGE_CURVE('',#115,#115,#101,.T.);
#136=EDGE_CURVE('',#116,#117,#31,.T.);
#137=EDGE_CURVE('',#117,#118,#102,.T.);
#138=EDGE_CURVE('',#118,#119,#32,.T.);
#139=EDGE_CURVE('',#119,#116,#103,.T.);
#140=EDGE_CURVE('',#117,#118,#15,.T.);
#141=EDGE_CURVE('',#120,#121,#33,.T.);
#142=EDGE_CURVE('',#121,#122,#104,.T.);
#143=EDGE_CURVE('',#122,#123,#34,.T.);
#144=EDGE_CURVE('',#123,#120,#105,.T.);
#145=EDGE_CURVE('',#121,#122,#16,.T.);
#146=EDGE_CURVE('',#124,#125,#106,.T.);
#147=EDGE_CURVE('',#126,#124,#17,.T.);
#148=EDGE_CURVE('',#127,#126,#107,.T.);
#149=EDGE_CURVE('',#125,#127,#18,.T.);
#150=EDGE_CURVE('',#125,#120,#19,.T.);
#151=EDGE_CURVE('',#123,#127,#20,.T.);
#152=EDGE_CURVE('',#126,#116,#21,.T.);
#153=EDGE_CURVE('',#119,#124,#22,.T.);
#154=ORIENTED_EDGE('',*,*,#128,.T.);
#155=ORIENTED_EDGE('',*,*,#129,.T.);
#156=ORIENTED_EDGE('',*,*,#130,.F.);
#157=ORIENTED_EDGE('',*,*,#128,.F.);
#158=ORIENTED_EDGE('',*,*,#129,.F.);
#159=ORIENTED_EDGE('',*,*,#131,.T.);
#160=ORIENTED_EDGE('',*,*,#132,.T.);
#161=ORIENTED_EDGE('',*,*,#133,.F.);
#162=ORIENTED_EDGE('',*,*,#131,.F.);
#163=ORIENTED_EDGE('',*,*,#132,.F.);
#164=ORIENTED_EDGE('',*,*,#134,.T.);
#165=ORIENTED_EDGE('',*,*,#130,.T.);
#166=ORIENTED_EDGE('',*,*,#135,.T.);
#167=ORIENTED_EDGE('',*,*,#135,.F.);
#168=ORIENTED_EDGE('',*,*,#133,.T.);
#169=ORIENTED_EDGE('',*,*,#136,.T.);
#170=ORIENTED_EDGE('',*,*,#137,.T.);
#171=ORIENTED_EDGE('',*,*,#138,.T.);
#172=ORIENTED_EDGE('',*,*,#139,.T.);
#173=ORIENTED_EDGE('',*,*,#137,.F.);
#174=ORIENTED_EDGE('',*,*,#140,.T.);
#175=ORIENTED_EDGE('',*,*,#141,.T.);
#176=ORIENTED_EDGE('',*,*,#142,.T.);
#177=ORIENTED_EDGE('',*,*,#143,.T.);
#178=ORIENTED_EDGE('',*,*,#144,.T.);
#179=ORIENTED_EDGE('',*,*,#142,.F.);
#180=ORIENTED_EDGE('',*,*,#145,.T.);
#181=ORIENTED_EDGE('',*,*,#146,.F.);
#182=ORIENTED_EDGE('',*,*,#147,.F.);
#183=ORIENTED_EDGE('',*,*,#148,.F.);
#184=ORIENTED_EDGE('',*,*,#149,.F.);
#185=ORIENTED_EDGE('',*,*,#143,.F.);
#186=ORIENTED_EDGE('',*,*,#145,.F.);
#187=ORIENTED_EDGE('',*,*,#141,.F.);
#188=ORIENTED_EDGE('',*,*,#150,.F.);
#189=ORIENTED_EDGE('',*,*,#149,.T.);
#190=ORIENTED_EDGE('',*,*,#151,.F.);
#191=ORIENTED_EDGE('',*,*,#138,.F.);
#192=ORIENTED_EDGE('',*,*,#140,.F.);
#193=ORIENTED_EDGE('',*,*,#136,.F.);
#194=ORIENTED_EDGE('',*,*,#152,.F.);
#195=ORIENTED_EDGE('',*,*,#147,.T.);
#196=ORIENTED_EDGE('',*,*,#153,.F.);
#197=ORIENTED_EDGE('',*,*,#139,.F.);
#198=ORIENTED_EDGE('',*,*,#153,.T.);
#199=ORIENTED_EDGE('',*,*,#146,.T.);
#200=ORIENTED_EDGE('',*,*,#150,.T.);
#201=ORIENTED_EDGE('',*,*,#144,.F.);
#202=ORIENTED_EDGE('',*,*,#151,.T.);
#203=ORIENTED_EDGE('',*,*,#148,.T.);
#204=ORIENTED_EDGE('',*,*,#152,.T.);
#205=ORIENTED_EDGE('',*,*,#134,.F.);
#206=CONICAL_SURFACE('',#235,14.75,45.0000000000001);
#207=CONICAL_SURFACE('',#241,9.75,45.);
#208=CONICAL_SURFACE('',#248,14.75,45.);
#209=CONICAL_SURFACE('',#251,5.85,45.0000000000002);
#210=CONICAL_SURFACE('',#255,5.85,45.0000000000002);
#211=ADVANCED_FACE('',(#54,#46),#206,.T.);
#212=ADVANCED_FACE('',(#55,#47),#43,.T.);
#213=ADVANCED_FACE('',(#56),#35,.T.);
#214=ADVANCED_FACE('',(#57,#48),#207,.T.);
#215=ADVANCED_FACE('',(#58,#49),#44,.T.);
#216=ADVANCED_FACE('',(#59,#50),#36,.F.);
#217=ADVANCED_FACE('',(#60,#51),#208,.T.);
#218=ADVANCED_FACE('',(#61,#52),#37,.F.);
#219=ADVANCED_FACE('',(#62),#209,.T.);
#220=ADVANCED_FACE('',(#63),#38,.F.);
#221=ADVANCED_FACE('',(#64),#210,.T.);
#222=ADVANCED_FACE('',(#65),#39,.F.);
#223=ADVANCED_FACE('',(#66),#40,.F.);
#224=ADVANCED_FACE('',(#67),#41,.F.);
#225=ADVANCED_FACE('',(#68),#42,.F.);
#226=ADVANCED_FACE('',(#69,#53),#45,.T.);
#227=CLOSED_SHELL('',(#211,#212,#213,#214,#215,#216,#217,#218,#219,#220,
#221,#222,#223,#224,#225,#226));
#228=DATE_TIME_ROLE('creation_date');
#229=APPLIED_DATE_AND_TIME_ASSIGNMENT(#230,#228,(#420));
#230=DATE_AND_TIME(#231,#232);
#231=CALENDAR_DATE(2022,11,8);
#232=LOCAL_TIME(14,39,16.,#233);
#233=COORDINATED_UNIVERSAL_TIME_OFFSET(0,0,.BEHIND.);
#234=AXIS2_PLACEMENT_3D('placement',#335,#265,#266);
#235=AXIS2_PLACEMENT_3D('',#336,#267,#268);
#236=AXIS2_PLACEMENT_3D('',#338,#269,#270);
#237=AXIS2_PLACEMENT_3D('',#340,#271,#272);
#238=AXIS2_PLACEMENT_3D('',#341,#273,#274);
#239=AXIS2_PLACEMENT_3D('',#343,#275,#276);
#240=AXIS2_PLACEMENT_3D('',#344,#277,#278);
#241=AXIS2_PLACEMENT_3D('',#345,#279,#280);
#242=AXIS2_PLACEMENT_3D('',#347,#281,#282);
#243=AXIS2_PLACEMENT_3D('',#349,#283,#284);
#244=AXIS2_PLACEMENT_3D('',#350,#285,#286);
#245=AXIS2_PLACEMENT_3D('',#352,#287,#288);
#246=AXIS2_PLACEMENT_3D('',#353,#289,#290);
#247=AXIS2_PLACEMENT_3D('',#355,#291,#292);
#248=AXIS2_PLACEMENT_3D('',#356,#293,#294);
#249=AXIS2_PLACEMENT_3D('',#358,#295,#296);
#250=AXIS2_PLACEMENT_3D('',#359,#297,#298);
#251=AXIS2_PLACEMENT_3D('',#360,#299,#300);
#252=AXIS2_PLACEMENT_3D('',#367,#301,#302);
#253=AXIS2_PLACEMENT_3D('',#372,#303,#304);
#254=AXIS2_PLACEMENT_3D('',#373,#305,#306);
#255=AXIS2_PLACEMENT_3D('',#375,#308,#309);
#256=AXIS2_PLACEMENT_3D('',#382,#310,#311);
#257=AXIS2_PLACEMENT_3D('',#387,#312,#313);
#258=AXIS2_PLACEMENT_3D('',#388,#314,#315);
#259=AXIS2_PLACEMENT_3D('',#390,#317,#318);
#260=AXIS2_PLACEMENT_3D('',#393,#319,#320);
#261=AXIS2_PLACEMENT_3D('',#397,#322,#323);
#262=AXIS2_PLACEMENT_3D('',#399,#325,#326);
#263=AXIS2_PLACEMENT_3D('',#402,#329,#330);
#264=AXIS2_PLACEMENT_3D('',#405,#333,#334);
#265=DIRECTION('axis',(0.,0.,1.));
#266=DIRECTION('refdir',(1.,0.,0.));
#267=DIRECTION('center_axis',(-1.,0.,0.));
#268=DIRECTION('ref_axis',(0.,-1.,0.));
#269=DIRECTION('center_axis',(1.,0.,0.));
#270=DIRECTION('ref_axis',(0.,-1.,0.));
#271=DIRECTION('center_axis',(-1.,0.,0.));
#272=DIRECTION('ref_axis',(0.,-1.,0.));
#273=DIRECTION('center_axis',(1.,0.,0.));
#274=DIRECTION('ref_axis',(0.,-1.,0.));
#275=DIRECTION('center_axis',(-1.,0.,0.));
#276=DIRECTION('ref_axis',(0.,-1.,0.));
#277=DIRECTION('center_axis',(1.,0.,0.));
#278=DIRECTION('ref_axis',(0.,0.,-1.));
#279=DIRECTION('center_axis',(1.,0.,0.));
#280=DIRECTION('ref_axis',(0.,0.,-1.));
#281=DIRECTION('center_axis',(-1.,0.,0.));
#282=DIRECTION('ref_axis',(0.,0.,-1.));
#283=DIRECTION('center_axis',(1.,0.,0.));
#284=DIRECTION('ref_axis',(0.,0.,-1.));
#285=DIRECTION('center_axis',(-1.,0.,0.));
#286=DIRECTION('ref_axis',(0.,0.,-1.));
#287=DIRECTION('center_axis',(1.,0.,0.));
#288=DIRECTION('ref_axis',(0.,0.,-1.));
#289=DIRECTION('center_axis',(1.,0.,0.));
#290=DIRECTION('ref_axis',(0.,0.,-1.));
#291=DIRECTION('center_axis',(1.,0.,0.));
#292=DIRECTION('ref_axis',(0.,0.,-1.));
#293=DIRECTION('center_axis',(1.,0.,0.));
#294=DIRECTION('ref_axis',(0.,-1.,0.));
#295=DIRECTION('center_axis',(1.,0.,0.));
#296=DIRECTION('ref_axis',(0.,-1.,0.));
#297=DIRECTION('center_axis',(1.,0.,0.));
#298=DIRECTION('ref_axis',(0.,0.,-1.));
#299=DIRECTION('center_axis',(1.,0.,0.));
#300=DIRECTION('ref_axis',(0.,0.,-1.));
#301=DIRECTION('center_axis',(1.,0.,0.));
#302=DIRECTION('ref_axis',(0.,0.,-1.));
#303=DIRECTION('center_axis',(-1.,0.,0.));
#304=DIRECTION('ref_axis',(0.,0.,-1.));
#305=DIRECTION('center_axis',(1.,0.,0.));
#306=DIRECTION('ref_axis',(0.,0.,-1.));
#307=DIRECTION('',(0.,0.,-1.));
#308=DIRECTION('center_axis',(1.,0.,0.));
#309=DIRECTION('ref_axis',(0.,0.,-1.));
#310=DIRECTION('center_axis',(1.,0.,0.));
#311=DIRECTION('ref_axis',(0.,0.,-1.));
#312=DIRECTION('center_axis',(-1.,0.,0.));
#313=DIRECTION('ref_axis',(0.,0.,-1.));
#314=DIRECTION('center_axis',(1.,0.,0.));
#315=DIRECTION('ref_axis',(0.,0.,-1.));
#316=DIRECTION('',(0.,0.,1.));
#317=DIRECTION('center_axis',(1.,0.,0.));
#318=DIRECTION('ref_axis',(0.,0.,-1.));
#319=DIRECTION('center_axis',(1.,0.,0.));
#320=DIRECTION('ref_axis',(0.,0.,-1.));
#321=DIRECTION('',(0.,0.,-1.));
#322=DIRECTION('center_axis',(1.,0.,0.));
#323=DIRECTION('ref_axis',(0.,0.,-1.));
#324=DIRECTION('',(0.,0.,1.));
#325=DIRECTION('center_axis',(0.,1.,0.));
#326=DIRECTION('ref_axis',(0.,0.,1.));
#327=DIRECTION('',(-1.,0.,0.));
#328=DIRECTION('',(1.,0.,0.));
#329=DIRECTION('center_axis',(0.,-1.,0.));
#330=DIRECTION('ref_axis',(0.,0.,-1.));
#331=DIRECTION('',(-1.,0.,0.));
#332=DIRECTION('',(1.,0.,0.));
#333=DIRECTION('center_axis',(-1.,0.,0.));
#334=DIRECTION('ref_axis',(0.,0.,-1.));
#335=CARTESIAN_POINT('',(0.,0.,0.));
#336=CARTESIAN_POINT('Origin',(49.75,0.,0.));
#337=CARTESIAN_POINT('',(49.5,15.,1.83697019872103E-15));
#338=CARTESIAN_POINT('Origin',(49.5,0.,0.));
#339=CARTESIAN_POINT('',(50.,14.5,-1.77573785876366E-15));
#340=CARTESIAN_POINT('Origin',(50.,0.,0.));
#341=CARTESIAN_POINT('Origin',(0.,0.,0.));
#342=CARTESIAN_POINT('',(0.5,15.,-1.83697019872103E-15));
#343=CARTESIAN_POINT('Origin',(0.5,0.,0.));
#344=CARTESIAN_POINT('Origin',(50.,-1.13994576067134E-15,-2.46716227694479E-16));
#345=CARTESIAN_POINT('Origin',(-9.25,0.,0.));
#346=CARTESIAN_POINT('',(-9.,1.22464679914735E-15,10.));
#347=CARTESIAN_POINT('Origin',(-9.,0.,0.));
#348=CARTESIAN_POINT('',(-9.5,-1.16341445918999E-15,9.5));
#349=CARTESIAN_POINT('Origin',(-9.5,0.,0.));
#350=CARTESIAN_POINT('Origin',(0.,0.,0.));
#351=CARTESIAN_POINT('',(0.,1.22464679914735E-15,10.));
#352=CARTESIAN_POINT('Origin',(0.,0.,0.));
#353=CARTESIAN_POINT('Origin',(-9.5,0.,-4.72128241470665E-16));
#354=CARTESIAN_POINT('',(-9.5,7.34788079488412E-16,6.));
#355=CARTESIAN_POINT('Origin',(-9.5,0.,0.));
#356=CARTESIAN_POINT('Origin',(0.25,0.,0.));
#357=CARTESIAN_POINT('',(0.,14.5,1.77573785876366E-15));
#358=CARTESIAN_POINT('Origin',(0.,0.,0.));
#359=CARTESIAN_POINT('Origin',(0.,-1.13994576067134E-15,-2.46716227694479E-16));
#360=CARTESIAN_POINT('Origin',(-24.35,0.,0.));
#361=CARTESIAN_POINT('',(-24.2,-2.,5.65685424949238));
#362=CARTESIAN_POINT('',(-24.5,-2.,5.33760245803301));
#363=CARTESIAN_POINT('Ctrl Pts',(-24.2,-2.,5.65685424949238));
#364=CARTESIAN_POINT('Ctrl Pts',(-24.3543556284765,-2.,5.49313538207732));
#365=CARTESIAN_POINT('Ctrl Pts',(-24.5,-2.,5.33760245803301));
#366=CARTESIAN_POINT('',(-24.5,-2.,-5.33760245803301));
#367=CARTESIAN_POINT('Origin',(-24.5,0.,0.));
#368=CARTESIAN_POINT('',(-24.2,-2.,-5.65685424949238));
#369=CARTESIAN_POINT('Ctrl Pts',(-24.5,-2.,-5.33760245803301));
#370=CARTESIAN_POINT('Ctrl Pts',(-24.3543556284765,-2.,-5.49313538207732));
#371=CARTESIAN_POINT('Ctrl Pts',(-24.2,-2.,-5.65685424949238));
#372=CARTESIAN_POINT('Origin',(-24.2,0.,0.));
#373=CARTESIAN_POINT('Origin',(-24.5,1.54197642309049E-16,-6.78022909193566E-16));
#374=CARTESIAN_POINT('',(-24.5,-2.,3.99307320404236));
#375=CARTESIAN_POINT('Origin',(-24.35,0.,0.));
#376=CARTESIAN_POINT('',(-24.2,2.,-5.65685424949238));
#377=CARTESIAN_POINT('',(-24.5,2.,-5.33760245803301));
#378=CARTESIAN_POINT('Ctrl Pts',(-24.2,2.,-5.65685424949238));
#379=CARTESIAN_POINT('Ctrl Pts',(-24.3543556284765,2.,-5.49313538207732));
#380=CARTESIAN_POINT('Ctrl Pts',(-24.5,2.,-5.33760245803301));
#381=CARTESIAN_POINT('',(-24.5,2.,5.33760245803301));
#382=CARTESIAN_POINT('Origin',(-24.5,0.,0.));
#383=CARTESIAN_POINT('',(-24.2,2.,5.65685424949238));
#384=CARTESIAN_POINT('Ctrl Pts',(-24.5,2.,5.33760245803301));
#385=CARTESIAN_POINT('Ctrl Pts',(-24.3543556284765,2.,5.49313538207732));
#386=CARTESIAN_POINT('Ctrl Pts',(-24.2,2.,5.65685424949238));
#387=CARTESIAN_POINT('Origin',(-24.2,0.,0.));
#388=CARTESIAN_POINT('Origin',(-24.5,1.54197642309049E-16,-6.78022909193566E-16));
#389=CARTESIAN_POINT('',(-24.5,2.,-3.99307320404236));
#390=CARTESIAN_POINT('Origin',(-14.5,0.986524442427246,-4.69529482025596E-16));
#391=CARTESIAN_POINT('',(-14.5,-2.,-5.65685424949238));
#392=CARTESIAN_POINT('',(-14.5,2.,-5.65685424949238));
#393=CARTESIAN_POINT('Origin',(-14.5,0.,0.));
#394=CARTESIAN_POINT('',(-14.5,-2.,5.65685424949238));
#395=CARTESIAN_POINT('',(-14.5,-2.,-8.2327719785844));
#396=CARTESIAN_POINT('',(-14.5,2.,5.65685424949238));
#397=CARTESIAN_POINT('Origin',(-14.5,0.,0.));
#398=CARTESIAN_POINT('',(-14.5,2.,8.2327719785844));
#399=CARTESIAN_POINT('Origin',(-24.5,2.,-7.98614640808472));
#400=CARTESIAN_POINT('',(-9.5,2.,-5.65685424949238));
#401=CARTESIAN_POINT('',(-9.5,2.,5.65685424949238));
#402=CARTESIAN_POINT('Origin',(-24.5,-2.,7.98614640808472));
#403=CARTESIAN_POINT('',(-9.5,-2.,5.65685424949238));
#404=CARTESIAN_POINT('',(-9.5,-2.,-5.65685424949238));
#405=CARTESIAN_POINT('Origin',(-9.5,0.,0.));
#406=UNCERTAINTY_MEASURE_WITH_UNIT(LENGTH_MEASURE(0.01),#410,
'DISTANCE_ACCURACY_VALUE',
'Maximum model space distance between geometric entities at asserted c
onnectivities');
#407=UNCERTAINTY_MEASURE_WITH_UNIT(LENGTH_MEASURE(1.E-6),#410,
'DISTANCE_ACCURACY_VALUE',
'Maximum model space distance between geometric entities at asserted c
onnectivities');
#408=(
GEOMETRIC_REPRESENTATION_CONTEXT(3)
GLOBAL_UNCERTAINTY_ASSIGNED_CONTEXT((#406))
GLOBAL_UNIT_ASSIGNED_CONTEXT((#410,#413,#411))
REPRESENTATION_CONTEXT('','3D')
);
#409=(
GEOMETRIC_REPRESENTATION_CONTEXT(3)
GLOBAL_UNCERTAINTY_ASSIGNED_CONTEXT((#407))
GLOBAL_UNIT_ASSIGNED_CONTEXT((#410,#413,#411))
REPRESENTATION_CONTEXT('','3D')
);
#410=(
LENGTH_UNIT()
NAMED_UNIT(*)
SI_UNIT(.MILLI.,.METRE.)
);
#411=(
NAMED_UNIT(*)
SI_UNIT($,.STERADIAN.)
SOLID_ANGLE_UNIT()
);
#412=DIMENSIONAL_EXPONENTS(0.,0.,0.,0.,0.,0.,0.);
#413=(
CONVERSION_BASED_UNIT('degree',#415)
NAMED_UNIT(#412)
PLANE_ANGLE_UNIT()
);
#414=(
NAMED_UNIT(*)
PLANE_ANGLE_UNIT()
SI_UNIT($,.RADIAN.)
);
#415=PLANE_ANGLE_MEASURE_WITH_UNIT(PLANE_ANGLE_MEASURE(0.01745329252),#414);
#416=SHAPE_DEFINITION_REPRESENTATION(#417,#418);
#417=PRODUCT_DEFINITION_SHAPE('',$,#420);
#418=SHAPE_REPRESENTATION('',(#234),#408);
#419=PRODUCT_DEFINITION_CONTEXT('part definition',#424,'design');
#420=PRODUCT_DEFINITION('SDT3050L','SDT3050L',#421,#419);
#421=PRODUCT_DEFINITION_FORMATION('',$,#426);
#422=PRODUCT_RELATED_PRODUCT_CATEGORY('SDT3050L','SDT3050L',(#426));
#423=APPLICATION_PROTOCOL_DEFINITION('international standard',
'automotive_design',2009,#424);
#424=APPLICATION_CONTEXT(
'Core Data for Automotive Mechanical Design Process');
#425=PRODUCT_CONTEXT('part definition',#424,'mechanical');
#426=PRODUCT('SDT3050L','SDT3050L',$,(#425));
#427=PRESENTATION_STYLE_ASSIGNMENT((#428));
#428=SURFACE_STYLE_USAGE(.BOTH.,#429);
#429=SURFACE_SIDE_STYLE('',(#430));
#430=SURFACE_STYLE_FILL_AREA(#431);
#431=FILL_AREA_STYLE('',(#432));
#432=FILL_AREA_STYLE_COLOUR('',#433);
#433=COLOUR_RGB('',1.,0.996078431372549,0.964705882352941);
ENDSEC;
END-ISO-10303-21;
